ISO-10303-21;
HEADER;
FILE_DESCRIPTION(('FreeCAD Model'),'2;1');
FILE_NAME('Open CASCADE Shape Model','2026-02-10T09:06:26',(''),(''),
  'Open CASCADE STEP processor 7.6','FreeCAD','Unknown');
FILE_SCHEMA(('AUTOMOTIVE_DESIGN { 1 0 10303 214 1 1 1 1 }'));
ENDSEC;
DATA;
#1 = APPLICATION_PROTOCOL_DEFINITION('international standard',
  'automotive_design',2000,#2);
#2 = APPLICATION_CONTEXT(
  'core data for automotive mechanical design processes');
#3 = SHAPE_DEFINITION_REPRESENTATION(#4,#10);
#4 = PRODUCT_DEFINITION_SHAPE('','',#5);
#5 = PRODUCT_DEFINITION('design','',#6,#9);
#6 = PRODUCT_DEFINITION_FORMATION('','',#7);
#7 = PRODUCT('STI8-IBP24','STI8-IBP24','',(#8));
#8 = PRODUCT_CONTEXT('',#2,'mechanical');
#9 = PRODUCT_DEFINITION_CONTEXT('part definition',#2,'design');
#10 = ADVANCED_BREP_SHAPE_REPRESENTATION('',(#11,#15),#343);
#11 = AXIS2_PLACEMENT_3D('',#12,#13,#14);
#12 = CARTESIAN_POINT('',(0.,0.,0.));
#13 = DIRECTION('',(0.,0.,1.));
#14 = DIRECTION('',(1.,0.,-0.));
#15 = MANIFOLD_SOLID_BREP('',#16);
#16 = CLOSED_SHELL('',(#17,#56,#77,#106,#130,#159,#179,#208,#232,#261,
    #281,#305,#334));
#17 = ADVANCED_FACE('',(#18),#51,.T.);
#18 = FACE_BOUND('',#19,.T.);
#19 = EDGE_LOOP('',(#20,#31,#43,#44));
#20 = ORIENTED_EDGE('',*,*,#21,.F.);
#21 = EDGE_CURVE('',#22,#24,#26,.T.);
#22 = VERTEX_POINT('',#23);
#23 = CARTESIAN_POINT('',(6.400074998779,17.7999,4.21889693239E-16));
#24 = VERTEX_POINT('',#25);
#25 = CARTESIAN_POINT('',(0.,17.7999,-6.400074998779));
#26 = CIRCLE('',#27,6.400074998779);
#27 = AXIS2_PLACEMENT_3D('',#28,#29,#30);
#28 = CARTESIAN_POINT('',(0.,17.7999,0.));
#29 = DIRECTION('',(0.,-1.,0.));
#30 = DIRECTION('',(0.,0.,-1.));
#31 = ORIENTED_EDGE('',*,*,#32,.F.);
#32 = EDGE_CURVE('',#33,#22,#35,.T.);
#33 = VERTEX_POINT('',#34);
#34 = CARTESIAN_POINT('',(-1.678545625312E-15,21.,0.));
#35 = B_SPLINE_CURVE_WITH_KNOTS('',6,(#36,#37,#38,#39,#40,#41,#42),
  .UNSPECIFIED.,.F.,.F.,(7,7),(-1.570796326795,-0.643485483885),
  .PIECEWISE_BEZIER_KNOTS.);
#36 = CARTESIAN_POINT('',(-2.22044604925E-15,21.,-9.860761315263E-32));
#37 = CARTESIAN_POINT('',(1.236414457213,21.,-3.028342014892E-16));
#38 = CARTESIAN_POINT('',(2.472823476019,20.770694304235,
    -6.056670709527E-16));
#39 = CARTESIAN_POINT('',(3.656104853702,20.312066893877,
    -8.954874212867E-16));
#40 = CARTESIAN_POINT('',(4.732965117143,19.64060141202,
    -1.159242116237E-15));
#41 = CARTESIAN_POINT('',(5.658241779632,18.789043156968,
    -1.385869536846E-15));
#42 = CARTESIAN_POINT('',(6.400074998779,17.7999,-1.567566272312E-15));
#43 = ORIENTED_EDGE('',*,*,#32,.T.);
#44 = ORIENTED_EDGE('',*,*,#45,.F.);
#45 = EDGE_CURVE('',#24,#22,#46,.T.);
#46 = CIRCLE('',#47,6.400074998779);
#47 = AXIS2_PLACEMENT_3D('',#48,#49,#50);
#48 = CARTESIAN_POINT('',(0.,17.7999,0.));
#49 = DIRECTION('',(0.,-1.,0.));
#50 = DIRECTION('',(0.,0.,-1.));
#51 = SPHERICAL_SURFACE('',#52,8.);
#52 = AXIS2_PLACEMENT_3D('',#53,#54,#55);
#53 = CARTESIAN_POINT('',(-2.168404344971E-15,13.,0.));
#54 = DIRECTION('',(0.,-1.,0.));
#55 = DIRECTION('',(1.,0.,0.));
#56 = ADVANCED_FACE('',(#57,#68),#72,.F.);
#57 = FACE_BOUND('',#58,.T.);
#58 = EDGE_LOOP('',(#59));
#59 = ORIENTED_EDGE('',*,*,#60,.F.);
#60 = EDGE_CURVE('',#61,#61,#63,.T.);
#61 = VERTEX_POINT('',#62);
#62 = CARTESIAN_POINT('',(0.,17.7999,-6.864635383451));
#63 = CIRCLE('',#64,6.864635383451);
#64 = AXIS2_PLACEMENT_3D('',#65,#66,#67);
#65 = CARTESIAN_POINT('',(0.,17.7999,0.));
#66 = DIRECTION('',(0.,-1.,0.));
#67 = DIRECTION('',(0.,0.,-1.));
#68 = FACE_BOUND('',#69,.T.);
#69 = EDGE_LOOP('',(#70,#71));
#70 = ORIENTED_EDGE('',*,*,#45,.T.);
#71 = ORIENTED_EDGE('',*,*,#21,.T.);
#72 = PLANE('',#73);
#73 = AXIS2_PLACEMENT_3D('',#74,#75,#76);
#74 = CARTESIAN_POINT('',(6.400074998779,17.7999,0.));
#75 = DIRECTION('',(0.,-1.,0.));
#76 = DIRECTION('',(0.,0.,-1.));
#77 = ADVANCED_FACE('',(#78),#101,.T.);
#78 = FACE_BOUND('',#79,.T.);
#79 = EDGE_LOOP('',(#80,#81,#93,#100));
#80 = ORIENTED_EDGE('',*,*,#60,.T.);
#81 = ORIENTED_EDGE('',*,*,#82,.T.);
#82 = EDGE_CURVE('',#61,#83,#85,.T.);
#83 = VERTEX_POINT('',#84);
#84 = CARTESIAN_POINT('',(0.,17.343768426775,-7.58061853521));
#85 = ( BOUNDED_CURVE() B_SPLINE_CURVE(6,(#86,#87,#88,#89,#90,#91,#92),
.UNSPECIFIED.,.F.,.F.) B_SPLINE_CURVE_WITH_KNOTS((7,7),(4.712388980385,
5.846852994181),.PIECEWISE_BEZIER_KNOTS.) CURVE() 
GEOMETRIC_REPRESENTATION_ITEM() RATIONAL_B_SPLINE_CURVE((1.016236541178,
    1.005294850621,0.998920042665,0.996819371511,0.998920042665,
1.005294850621,1.016236541178)) REPRESENTATION_ITEM('') );
#86 = CARTESIAN_POINT('',(0.,17.7999,-6.864635383451));
#87 = CARTESIAN_POINT('',(0.,17.7999,-7.015632143818));
#88 = CARTESIAN_POINT('',(0.,17.765421306879,-7.164629840519));
#89 = CARTESIAN_POINT('',(0.,17.697919615655,-7.302952219437));
#90 = CARTESIAN_POINT('',(0.,17.60108441393,-7.422587091169));
#91 = CARTESIAN_POINT('',(0.,17.480617966514,-7.516804546815));
#92 = CARTESIAN_POINT('',(0.,17.343768426775,-7.58061853521));
#93 = ORIENTED_EDGE('',*,*,#94,.F.);
#94 = EDGE_CURVE('',#83,#83,#95,.T.);
#95 = CIRCLE('',#96,7.58061853521);
#96 = AXIS2_PLACEMENT_3D('',#97,#98,#99);
#97 = CARTESIAN_POINT('',(0.,17.343768426775,0.));
#98 = DIRECTION('',(0.,-1.,0.));
#99 = DIRECTION('',(0.,0.,-1.));
#100 = ORIENTED_EDGE('',*,*,#82,.F.);
#101 = TOROIDAL_SURFACE('',#102,6.864635383451,0.79);
#102 = AXIS2_PLACEMENT_3D('',#103,#104,#105);
#103 = CARTESIAN_POINT('',(0.,17.0099,0.));
#104 = DIRECTION('',(0.,-1.,0.));
#105 = DIRECTION('',(0.,0.,-1.));
#106 = ADVANCED_FACE('',(#107),#125,.T.);
#107 = FACE_BOUND('',#108,.T.);
#108 = EDGE_LOOP('',(#109,#118,#123,#124));
#109 = ORIENTED_EDGE('',*,*,#110,.F.);
#110 = EDGE_CURVE('',#111,#111,#113,.T.);
#111 = VERTEX_POINT('',#112);
#112 = CARTESIAN_POINT('',(0.,14.601,-8.859632710449));
#113 = CIRCLE('',#114,8.859632710449);
#114 = AXIS2_PLACEMENT_3D('',#115,#116,#117);
#115 = CARTESIAN_POINT('',(0.,14.601,0.));
#116 = DIRECTION('',(0.,-1.,0.));
#117 = DIRECTION('',(0.,0.,-1.));
#118 = ORIENTED_EDGE('',*,*,#119,.F.);
#119 = EDGE_CURVE('',#83,#111,#120,.T.);
#120 = B_SPLINE_CURVE_WITH_KNOTS('',1,(#121,#122),.UNSPECIFIED.,.F.,.F.,
  (2,2),(0.,3.026327130926),.PIECEWISE_BEZIER_KNOTS.);
#121 = CARTESIAN_POINT('',(-1.85671604494E-15,17.343768426775,
    -7.58061853521));
#122 = CARTESIAN_POINT('',(-2.169984168094E-15,14.601,-8.859632710449));
#123 = ORIENTED_EDGE('',*,*,#94,.T.);
#124 = ORIENTED_EDGE('',*,*,#119,.T.);
#125 = CONICAL_SURFACE('',#126,7.58061853521,0.436344367832);
#126 = AXIS2_PLACEMENT_3D('',#127,#128,#129);
#127 = CARTESIAN_POINT('',(0.,17.343768426775,0.));
#128 = DIRECTION('',(0.,-1.,0.));
#129 = DIRECTION('',(0.,0.,-1.));
#130 = ADVANCED_FACE('',(#131),#154,.F.);
#131 = FACE_BOUND('',#132,.F.);
#132 = EDGE_LOOP('',(#133,#142,#152,#153));
#133 = ORIENTED_EDGE('',*,*,#134,.T.);
#134 = EDGE_CURVE('',#135,#135,#137,.T.);
#135 = VERTEX_POINT('',#136);
#136 = CARTESIAN_POINT('',(0.,14.3,-9.3322));
#137 = CIRCLE('',#138,9.3322);
#138 = AXIS2_PLACEMENT_3D('',#139,#140,#141);
#139 = CARTESIAN_POINT('',(0.,14.3,0.));
#140 = DIRECTION('',(0.,-1.,0.));
#141 = DIRECTION('',(0.,0.,-1.));
#142 = ORIENTED_EDGE('',*,*,#143,.T.);
#143 = EDGE_CURVE('',#135,#111,#144,.T.);
#144 = ( BOUNDED_CURVE() B_SPLINE_CURVE(6,(#145,#146,#147,#148,#149,#150
,#151),.UNSPECIFIED.,.F.,.F.) B_SPLINE_CURVE_WITH_KNOTS((7,7),(
1.570719125868,2.705161223105),.PIECEWISE_BEZIER_KNOTS.) CURVE() 
GEOMETRIC_REPRESENTATION_ITEM() RATIONAL_B_SPLINE_CURVE((1.016235908046,
    1.005294648733,0.998920084587,0.996819493076,0.998920084587,
1.005294648733,1.016235908046)) REPRESENTATION_ITEM('') );
#145 = CARTESIAN_POINT('',(0.,14.3,-9.3322));
#146 = CARTESIAN_POINT('',(0.,14.299992306473,-9.232544105798));
#147 = CARTESIAN_POINT('',(0.,14.322739757831,-9.134205758432));
#148 = CARTESIAN_POINT('',(0.,14.367282112623,-9.042911027403));
#149 = CARTESIAN_POINT('',(0.,14.431184904047,-8.963947855402));
#150 = CARTESIAN_POINT('',(0.,14.510685261707,-8.901758063331));
#151 = CARTESIAN_POINT('',(0.,14.601,-8.859632710449));
#152 = ORIENTED_EDGE('',*,*,#110,.F.);
#153 = ORIENTED_EDGE('',*,*,#143,.F.);
#154 = TOROIDAL_SURFACE('',#155,9.332159747437,0.5214);
#155 = AXIS2_PLACEMENT_3D('',#156,#157,#158);
#156 = CARTESIAN_POINT('',(0.,14.821399998446,0.));
#157 = DIRECTION('',(0.,-1.,0.));
#158 = DIRECTION('',(0.,0.,-1.));
#159 = ADVANCED_FACE('',(#160,#171),#174,.F.);
#160 = FACE_BOUND('',#161,.T.);
#161 = EDGE_LOOP('',(#162));
#162 = ORIENTED_EDGE('',*,*,#163,.F.);
#163 = EDGE_CURVE('',#164,#164,#166,.T.);
#164 = VERTEX_POINT('',#165);
#165 = CARTESIAN_POINT('',(0.,14.3,-14.8));
#166 = CIRCLE('',#167,14.8);
#167 = AXIS2_PLACEMENT_3D('',#168,#169,#170);
#168 = CARTESIAN_POINT('',(0.,14.3,0.));
#169 = DIRECTION('',(0.,-1.,0.));
#170 = DIRECTION('',(0.,0.,-1.));
#171 = FACE_BOUND('',#172,.T.);
#172 = EDGE_LOOP('',(#173));
#173 = ORIENTED_EDGE('',*,*,#134,.T.);
#174 = PLANE('',#175);
#175 = AXIS2_PLACEMENT_3D('',#176,#177,#178);
#176 = CARTESIAN_POINT('',(9.3322,14.3,0.));
#177 = DIRECTION('',(0.,-1.,0.));
#178 = DIRECTION('',(0.,0.,-1.));
#179 = ADVANCED_FACE('',(#180),#203,.T.);
#180 = FACE_BOUND('',#181,.T.);
#181 = EDGE_LOOP('',(#182,#183,#195,#202));
#182 = ORIENTED_EDGE('',*,*,#163,.T.);
#183 = ORIENTED_EDGE('',*,*,#184,.T.);
#184 = EDGE_CURVE('',#164,#185,#187,.T.);
#185 = VERTEX_POINT('',#186);
#186 = CARTESIAN_POINT('',(0.,13.6,-15.5));
#187 = ( BOUNDED_CURVE() B_SPLINE_CURVE(6,(#188,#189,#190,#191,#192,#193
,#194),.UNSPECIFIED.,.F.,.F.) B_SPLINE_CURVE_WITH_KNOTS((7,7),(
4.712388980385,6.28318530718),.PIECEWISE_BEZIER_KNOTS.) CURVE() 
GEOMETRIC_REPRESENTATION_ITEM() RATIONAL_B_SPLINE_CURVE((1.031393471788,
    1.010025407661,0.997924642725,0.993958444137,0.997924642725,
1.010025407661,1.031393471788)) REPRESENTATION_ITEM('') );
#188 = CARTESIAN_POINT('',(0.,14.3,-14.8));
#189 = CARTESIAN_POINT('',(0.,14.3,-14.9871357482));
#190 = CARTESIAN_POINT('',(0.,14.240496954556,-15.1693960008));
#191 = CARTESIAN_POINT('',(0.,14.126343659242,-15.32634365924));
#192 = CARTESIAN_POINT('',(0.,13.969396000808,-15.44049695455));
#193 = CARTESIAN_POINT('',(0.,13.787135748207,-15.5));
#194 = CARTESIAN_POINT('',(0.,13.6,-15.5));
#195 = ORIENTED_EDGE('',*,*,#196,.F.);
#196 = EDGE_CURVE('',#185,#185,#197,.T.);
#197 = CIRCLE('',#198,15.5);
#198 = AXIS2_PLACEMENT_3D('',#199,#200,#201);
#199 = CARTESIAN_POINT('',(0.,13.6,0.));
#200 = DIRECTION('',(0.,-1.,0.));
#201 = DIRECTION('',(0.,0.,-1.));
#202 = ORIENTED_EDGE('',*,*,#184,.F.);
#203 = TOROIDAL_SURFACE('',#204,14.8,0.7);
#204 = AXIS2_PLACEMENT_3D('',#205,#206,#207);
#205 = CARTESIAN_POINT('',(0.,13.6,0.));
#206 = DIRECTION('',(0.,-1.,0.));
#207 = DIRECTION('',(0.,0.,-1.));
#208 = ADVANCED_FACE('',(#209),#227,.T.);
#209 = FACE_BOUND('',#210,.T.);
#210 = EDGE_LOOP('',(#211,#220,#225,#226));
#211 = ORIENTED_EDGE('',*,*,#212,.F.);
#212 = EDGE_CURVE('',#213,#213,#215,.T.);
#213 = VERTEX_POINT('',#214);
#214 = CARTESIAN_POINT('',(0.,11.7,-15.5));
#215 = CIRCLE('',#216,15.5);
#216 = AXIS2_PLACEMENT_3D('',#217,#218,#219);
#217 = CARTESIAN_POINT('',(0.,11.7,0.));
#218 = DIRECTION('',(0.,-1.,0.));
#219 = DIRECTION('',(0.,0.,-1.));
#220 = ORIENTED_EDGE('',*,*,#221,.F.);
#221 = EDGE_CURVE('',#185,#213,#222,.T.);
#222 = B_SPLINE_CURVE_WITH_KNOTS('',1,(#223,#224),.UNSPECIFIED.,.F.,.F.,
  (2,2),(-13.6,-11.7),.PIECEWISE_BEZIER_KNOTS.);
#223 = CARTESIAN_POINT('',(-3.796405077357E-15,13.6,-15.5));
#224 = CARTESIAN_POINT('',(-3.796405077357E-15,11.7,-15.5));
#225 = ORIENTED_EDGE('',*,*,#196,.T.);
#226 = ORIENTED_EDGE('',*,*,#221,.T.);
#227 = CYLINDRICAL_SURFACE('',#228,15.5);
#228 = AXIS2_PLACEMENT_3D('',#229,#230,#231);
#229 = CARTESIAN_POINT('',(0.,0.,0.));
#230 = DIRECTION('',(0.,-1.,0.));
#231 = DIRECTION('',(0.,0.,-1.));
#232 = ADVANCED_FACE('',(#233),#256,.T.);
#233 = FACE_BOUND('',#234,.T.);
#234 = EDGE_LOOP('',(#235,#236,#248,#255));
#235 = ORIENTED_EDGE('',*,*,#212,.T.);
#236 = ORIENTED_EDGE('',*,*,#237,.T.);
#237 = EDGE_CURVE('',#213,#238,#240,.T.);
#238 = VERTEX_POINT('',#239);
#239 = CARTESIAN_POINT('',(0.,11.,-14.8));
#240 = ( BOUNDED_CURVE() B_SPLINE_CURVE(6,(#241,#242,#243,#244,#245,#246
,#247),.UNSPECIFIED.,.F.,.F.) B_SPLINE_CURVE_WITH_KNOTS((7,7),(0.,
1.570796326795),.PIECEWISE_BEZIER_KNOTS.) CURVE() 
GEOMETRIC_REPRESENTATION_ITEM() RATIONAL_B_SPLINE_CURVE((1.031393471788,
    1.010025407661,0.997924642725,0.993958444137,0.997924642725,
1.010025407661,1.031393471788)) REPRESENTATION_ITEM('') );
#241 = CARTESIAN_POINT('',(0.,11.7,-15.5));
#242 = CARTESIAN_POINT('',(0.,11.512864251793,-15.5));
#243 = CARTESIAN_POINT('',(0.,11.330603999192,-15.44049695455));
#244 = CARTESIAN_POINT('',(0.,11.173656340758,-15.32634365924));
#245 = CARTESIAN_POINT('',(0.,11.059503045444,-15.1693960008));
#246 = CARTESIAN_POINT('',(0.,11.,-14.9871357482));
#247 = CARTESIAN_POINT('',(0.,11.,-14.8));
#248 = ORIENTED_EDGE('',*,*,#249,.F.);
#249 = EDGE_CURVE('',#238,#238,#250,.T.);
#250 = CIRCLE('',#251,14.8);
#251 = AXIS2_PLACEMENT_3D('',#252,#253,#254);
#252 = CARTESIAN_POINT('',(0.,11.,0.));
#253 = DIRECTION('',(0.,-1.,0.));
#254 = DIRECTION('',(0.,0.,-1.));
#255 = ORIENTED_EDGE('',*,*,#237,.F.);
#256 = TOROIDAL_SURFACE('',#257,14.8,0.7);
#257 = AXIS2_PLACEMENT_3D('',#258,#259,#260);
#258 = CARTESIAN_POINT('',(0.,11.7,0.));
#259 = DIRECTION('',(0.,-1.,0.));
#260 = DIRECTION('',(0.,0.,-1.));
#261 = ADVANCED_FACE('',(#262,#273),#276,.F.);
#262 = FACE_BOUND('',#263,.T.);
#263 = EDGE_LOOP('',(#264));
#264 = ORIENTED_EDGE('',*,*,#265,.F.);
#265 = EDGE_CURVE('',#266,#266,#268,.T.);
#266 = VERTEX_POINT('',#267);
#267 = CARTESIAN_POINT('',(0.,11.,-12.));
#268 = CIRCLE('',#269,12.);
#269 = AXIS2_PLACEMENT_3D('',#270,#271,#272);
#270 = CARTESIAN_POINT('',(0.,11.,0.));
#271 = DIRECTION('',(0.,-1.,0.));
#272 = DIRECTION('',(0.,0.,-1.));
#273 = FACE_BOUND('',#274,.T.);
#274 = EDGE_LOOP('',(#275));
#275 = ORIENTED_EDGE('',*,*,#249,.T.);
#276 = PLANE('',#277);
#277 = AXIS2_PLACEMENT_3D('',#278,#279,#280);
#278 = CARTESIAN_POINT('',(14.8,11.,0.));
#279 = DIRECTION('',(0.,1.,0.));
#280 = DIRECTION('',(0.,-0.,1.));
#281 = ADVANCED_FACE('',(#282),#300,.T.);
#282 = FACE_BOUND('',#283,.T.);
#283 = EDGE_LOOP('',(#284,#293,#298,#299));
#284 = ORIENTED_EDGE('',*,*,#285,.F.);
#285 = EDGE_CURVE('',#286,#286,#288,.T.);
#286 = VERTEX_POINT('',#287);
#287 = CARTESIAN_POINT('',(0.,1.584,-12.));
#288 = CIRCLE('',#289,12.);
#289 = AXIS2_PLACEMENT_3D('',#290,#291,#292);
#290 = CARTESIAN_POINT('',(0.,1.584,0.));
#291 = DIRECTION('',(0.,-1.,0.));
#292 = DIRECTION('',(0.,0.,-1.));
#293 = ORIENTED_EDGE('',*,*,#294,.F.);
#294 = EDGE_CURVE('',#266,#286,#295,.T.);
#295 = B_SPLINE_CURVE_WITH_KNOTS('',1,(#296,#297),.UNSPECIFIED.,.F.,.F.,
  (2,2),(-11.,-1.584),.PIECEWISE_BEZIER_KNOTS.);
#296 = CARTESIAN_POINT('',(-2.939152317954E-15,11.,-12.));
#297 = CARTESIAN_POINT('',(-2.939152317954E-15,1.584,-12.));
#298 = ORIENTED_EDGE('',*,*,#265,.T.);
#299 = ORIENTED_EDGE('',*,*,#294,.T.);
#300 = CYLINDRICAL_SURFACE('',#301,12.);
#301 = AXIS2_PLACEMENT_3D('',#302,#303,#304);
#302 = CARTESIAN_POINT('',(0.,0.,0.));
#303 = DIRECTION('',(0.,-1.,0.));
#304 = DIRECTION('',(0.,0.,-1.));
#305 = ADVANCED_FACE('',(#306),#329,.T.);
#306 = FACE_BOUND('',#307,.T.);
#307 = EDGE_LOOP('',(#308,#309,#321,#328));
#308 = ORIENTED_EDGE('',*,*,#285,.T.);
#309 = ORIENTED_EDGE('',*,*,#310,.T.);
#310 = EDGE_CURVE('',#286,#311,#313,.T.);
#311 = VERTEX_POINT('',#312);
#312 = CARTESIAN_POINT('',(0.,0.,-10.416));
#313 = ( BOUNDED_CURVE() B_SPLINE_CURVE(6,(#314,#315,#316,#317,#318,#319
,#320),.UNSPECIFIED.,.F.,.F.) B_SPLINE_CURVE_WITH_KNOTS((7,7),(0.,
1.570796326795),.PIECEWISE_BEZIER_KNOTS.) CURVE() 
GEOMETRIC_REPRESENTATION_ITEM() RATIONAL_B_SPLINE_CURVE((1.031393471788,
    1.010025407661,0.997924642725,0.993958444137,0.997924642725,
1.010025407661,1.031393471788)) REPRESENTATION_ITEM('') );
#314 = CARTESIAN_POINT('',(0.,1.584,-12.));
#315 = CARTESIAN_POINT('',(0.,1.160538535486,-12.));
#316 = CARTESIAN_POINT('',(0.,0.74810962103,-11.86535310859));
#317 = CARTESIAN_POINT('',(0.,0.392959491088,-11.60704050891));
#318 = CARTESIAN_POINT('',(0.,0.134646891404,-11.25189037897));
#319 = CARTESIAN_POINT('',(0.,0.,-10.83946146451));
#320 = CARTESIAN_POINT('',(0.,0.,-10.416));
#321 = ORIENTED_EDGE('',*,*,#322,.F.);
#322 = EDGE_CURVE('',#311,#311,#323,.T.);
#323 = CIRCLE('',#324,10.416);
#324 = AXIS2_PLACEMENT_3D('',#325,#326,#327);
#325 = CARTESIAN_POINT('',(0.,0.,0.));
#326 = DIRECTION('',(0.,-1.,0.));
#327 = DIRECTION('',(0.,0.,-1.));
#328 = ORIENTED_EDGE('',*,*,#310,.F.);
#329 = TOROIDAL_SURFACE('',#330,10.416,1.584);
#330 = AXIS2_PLACEMENT_3D('',#331,#332,#333);
#331 = CARTESIAN_POINT('',(0.,1.584,0.));
#332 = DIRECTION('',(0.,-1.,0.));
#333 = DIRECTION('',(0.,0.,-1.));
#334 = ADVANCED_FACE('',(#335),#338,.F.);
#335 = FACE_BOUND('',#336,.T.);
#336 = EDGE_LOOP('',(#337));
#337 = ORIENTED_EDGE('',*,*,#322,.T.);
#338 = PLANE('',#339);
#339 = AXIS2_PLACEMENT_3D('',#340,#341,#342);
#340 = CARTESIAN_POINT('',(10.416,0.,0.));
#341 = DIRECTION('',(0.,1.,0.));
#342 = DIRECTION('',(0.,-0.,1.));
#343 = ( GEOMETRIC_REPRESENTATION_CONTEXT(3) 
GLOBAL_UNCERTAINTY_ASSIGNED_CONTEXT((#347)) GLOBAL_UNIT_ASSIGNED_CONTEXT
((#344,#345,#346)) REPRESENTATION_CONTEXT('Context #1',
  '3D Context with UNIT and UNCERTAINTY') );
#344 = ( LENGTH_UNIT() NAMED_UNIT(*) SI_UNIT(.MILLI.,.METRE.) );
#345 = ( NAMED_UNIT(*) PLANE_ANGLE_UNIT() SI_UNIT($,.RADIAN.) );
#346 = ( NAMED_UNIT(*) SI_UNIT($,.STERADIAN.) SOLID_ANGLE_UNIT() );
#347 = UNCERTAINTY_MEASURE_WITH_UNIT(LENGTH_MEASURE(1.E-05),#344,
  'distance_accuracy_value','confusion accuracy');
#348 = PRODUCT_RELATED_PRODUCT_CATEGORY('part',$,(#7));
#349 = MECHANICAL_DESIGN_GEOMETRIC_PRESENTATION_REPRESENTATION('',(#350,
    #358,#366,#373,#380,#387,#394,#401,#408,#415,#422,#429,#436),#343);
#350 = STYLED_ITEM('color',(#351),#17);
#351 = PRESENTATION_STYLE_ASSIGNMENT((#352));
#352 = SURFACE_STYLE_USAGE(.BOTH.,#353);
#353 = SURFACE_SIDE_STYLE('',(#354));
#354 = SURFACE_STYLE_FILL_AREA(#355);
#355 = FILL_AREA_STYLE('',(#356));
#356 = FILL_AREA_STYLE_COLOUR('',#357);
#357 = DRAUGHTING_PRE_DEFINED_COLOUR('white');
#358 = STYLED_ITEM('color',(#359),#56);
#359 = PRESENTATION_STYLE_ASSIGNMENT((#360));
#360 = SURFACE_STYLE_USAGE(.BOTH.,#361);
#361 = SURFACE_SIDE_STYLE('',(#362));
#362 = SURFACE_STYLE_FILL_AREA(#363);
#363 = FILL_AREA_STYLE('',(#364));
#364 = FILL_AREA_STYLE_COLOUR('',#365);
#365 = COLOUR_RGB('',0.729411790161,0.768627468855,0.784313732475);
#366 = STYLED_ITEM('color',(#367),#77);
#367 = PRESENTATION_STYLE_ASSIGNMENT((#368));
#368 = SURFACE_STYLE_USAGE(.BOTH.,#369);
#369 = SURFACE_SIDE_STYLE('',(#370));
#370 = SURFACE_STYLE_FILL_AREA(#371);
#371 = FILL_AREA_STYLE('',(#372));
#372 = FILL_AREA_STYLE_COLOUR('',#365);
#373 = STYLED_ITEM('color',(#374),#106);
#374 = PRESENTATION_STYLE_ASSIGNMENT((#375));
#375 = SURFACE_STYLE_USAGE(.BOTH.,#376);
#376 = SURFACE_SIDE_STYLE('',(#377));
#377 = SURFACE_STYLE_FILL_AREA(#378);
#378 = FILL_AREA_STYLE('',(#379));
#379 = FILL_AREA_STYLE_COLOUR('',#365);
#380 = STYLED_ITEM('color',(#381),#130);
#381 = PRESENTATION_STYLE_ASSIGNMENT((#382));
#382 = SURFACE_STYLE_USAGE(.BOTH.,#383);
#383 = SURFACE_SIDE_STYLE('',(#384));
#384 = SURFACE_STYLE_FILL_AREA(#385);
#385 = FILL_AREA_STYLE('',(#386));
#386 = FILL_AREA_STYLE_COLOUR('',#365);
#387 = STYLED_ITEM('color',(#388),#159);
#388 = PRESENTATION_STYLE_ASSIGNMENT((#389));
#389 = SURFACE_STYLE_USAGE(.BOTH.,#390);
#390 = SURFACE_SIDE_STYLE('',(#391));
#391 = SURFACE_STYLE_FILL_AREA(#392);
#392 = FILL_AREA_STYLE('',(#393));
#393 = FILL_AREA_STYLE_COLOUR('',#365);
#394 = STYLED_ITEM('color',(#395),#179);
#395 = PRESENTATION_STYLE_ASSIGNMENT((#396));
#396 = SURFACE_STYLE_USAGE(.BOTH.,#397);
#397 = SURFACE_SIDE_STYLE('',(#398));
#398 = SURFACE_STYLE_FILL_AREA(#399);
#399 = FILL_AREA_STYLE('',(#400));
#400 = FILL_AREA_STYLE_COLOUR('',#365);
#401 = STYLED_ITEM('color',(#402),#208);
#402 = PRESENTATION_STYLE_ASSIGNMENT((#403));
#403 = SURFACE_STYLE_USAGE(.BOTH.,#404);
#404 = SURFACE_SIDE_STYLE('',(#405));
#405 = SURFACE_STYLE_FILL_AREA(#406);
#406 = FILL_AREA_STYLE('',(#407));
#407 = FILL_AREA_STYLE_COLOUR('',#365);
#408 = STYLED_ITEM('color',(#409),#232);
#409 = PRESENTATION_STYLE_ASSIGNMENT((#410));
#410 = SURFACE_STYLE_USAGE(.BOTH.,#411);
#411 = SURFACE_SIDE_STYLE('',(#412));
#412 = SURFACE_STYLE_FILL_AREA(#413);
#413 = FILL_AREA_STYLE('',(#414));
#414 = FILL_AREA_STYLE_COLOUR('',#365);
#415 = STYLED_ITEM('color',(#416),#261);
#416 = PRESENTATION_STYLE_ASSIGNMENT((#417));
#417 = SURFACE_STYLE_USAGE(.BOTH.,#418);
#418 = SURFACE_SIDE_STYLE('',(#419));
#419 = SURFACE_STYLE_FILL_AREA(#420);
#420 = FILL_AREA_STYLE('',(#421));
#421 = FILL_AREA_STYLE_COLOUR('',#365);
#422 = STYLED_ITEM('color',(#423),#281);
#423 = PRESENTATION_STYLE_ASSIGNMENT((#424));
#424 = SURFACE_STYLE_USAGE(.BOTH.,#425);
#425 = SURFACE_SIDE_STYLE('',(#426));
#426 = SURFACE_STYLE_FILL_AREA(#427);
#427 = FILL_AREA_STYLE('',(#428));
#428 = FILL_AREA_STYLE_COLOUR('',#365);
#429 = STYLED_ITEM('color',(#430),#305);
#430 = PRESENTATION_STYLE_ASSIGNMENT((#431));
#431 = SURFACE_STYLE_USAGE(.BOTH.,#432);
#432 = SURFACE_SIDE_STYLE('',(#433));
#433 = SURFACE_STYLE_FILL_AREA(#434);
#434 = FILL_AREA_STYLE('',(#435));
#435 = FILL_AREA_STYLE_COLOUR('',#365);
#436 = STYLED_ITEM('color',(#437),#334);
#437 = PRESENTATION_STYLE_ASSIGNMENT((#438));
#438 = SURFACE_STYLE_USAGE(.BOTH.,#439);
#439 = SURFACE_SIDE_STYLE('',(#440));
#440 = SURFACE_STYLE_FILL_AREA(#441);
#441 = FILL_AREA_STYLE('',(#442));
#442 = FILL_AREA_STYLE_COLOUR('',#365);
ENDSEC;
END-ISO-10303-21;
