ISO-10303-21;
HEADER;
FILE_DESCRIPTION(('FreeCAD Model'),'2;1');
FILE_NAME('Open CASCADE Shape Model','2024-03-20T11:39:15',(''),(''),
  'Open CASCADE STEP processor 7.6','FreeCAD','Unknown');
FILE_SCHEMA(('AUTOMOTIVE_DESIGN { 1 0 10303 214 1 1 1 1 }'));
ENDSEC;
DATA;
#1 = APPLICATION_PROTOCOL_DEFINITION('international standard',
  'automotive_design',2000,#2);
#2 = APPLICATION_CONTEXT(
  'core data for automotive mechanical design processes');
#3 = SHAPE_DEFINITION_REPRESENTATION(#4,#10);
#4 = PRODUCT_DEFINITION_SHAPE('','',#5);
#5 = PRODUCT_DEFINITION('design','',#6,#9);
#6 = PRODUCT_DEFINITION_FORMATION('','',#7);
#7 = PRODUCT('STI8-BED30','STI8-BED30','',(#8));
#8 = PRODUCT_CONTEXT('',#2,'mechanical');
#9 = PRODUCT_DEFINITION_CONTEXT('part definition',#2,'design');
#10 = ADVANCED_BREP_SHAPE_REPRESENTATION('',(#11,#15),#286);
#11 = AXIS2_PLACEMENT_3D('',#12,#13,#14);
#12 = CARTESIAN_POINT('',(0.,0.,0.));
#13 = DIRECTION('',(0.,0.,1.));
#14 = DIRECTION('',(1.,0.,-0.));
#15 = MANIFOLD_SOLID_BREP('',#16);
#16 = CLOSED_SHELL('',(#17,#54,#112,#151,#205,#259));
#17 = ADVANCED_FACE('',(#18),#31,.F.);
#18 = FACE_BOUND('',#19,.T.);
#19 = EDGE_LOOP('',(#20));
#20 = ORIENTED_EDGE('',*,*,#21,.F.);
#21 = EDGE_CURVE('',#22,#22,#24,.T.);
#22 = VERTEX_POINT('',#23);
#23 = CARTESIAN_POINT('',(15.,30.,0.));
#24 = SURFACE_CURVE('',#25,(#30,#42),.PCURVE_S1.);
#25 = CIRCLE('',#26,15.);
#26 = AXIS2_PLACEMENT_3D('',#27,#28,#29);
#27 = CARTESIAN_POINT('',(2.407412430484E-32,30.,0.));
#28 = DIRECTION('',(-3.794031989514E-18,-1.,0.));
#29 = DIRECTION('',(1.,-3.794031989514E-18,0.));
#30 = PCURVE('',#31,#36);
#31 = PLANE('',#32);
#32 = AXIS2_PLACEMENT_3D('',#33,#34,#35);
#33 = CARTESIAN_POINT('',(1.079600905309E-34,30.,0.));
#34 = DIRECTION('',(-3.794031989514E-18,-1.,0.));
#35 = DIRECTION('',(1.,-3.794031989514E-18,0.));
#36 = DEFINITIONAL_REPRESENTATION('',(#37),#41);
#37 = CIRCLE('',#38,15.);
#38 = AXIS2_PLACEMENT_2D('',#39,#40);
#39 = CARTESIAN_POINT('',(2.396616421431E-32,0.));
#40 = DIRECTION('',(1.,0.));
#41 = ( GEOMETRIC_REPRESENTATION_CONTEXT(2) 
PARAMETRIC_REPRESENTATION_CONTEXT() REPRESENTATION_CONTEXT('2D SPACE',''
  ) );
#42 = PCURVE('',#43,#48);
#43 = CYLINDRICAL_SURFACE('',#44,15.);
#44 = AXIS2_PLACEMENT_3D('',#45,#46,#47);
#45 = CARTESIAN_POINT('',(-1.138209596854E-16,1.7763568394E-15,0.));
#46 = DIRECTION('',(-3.794031989514E-18,-1.,0.));
#47 = DIRECTION('',(1.,-3.794031989514E-18,0.));
#48 = DEFINITIONAL_REPRESENTATION('',(#49),#53);
#49 = LINE('',#50,#51);
#50 = CARTESIAN_POINT('',(0.,-30.));
#51 = VECTOR('',#52,1.);
#52 = DIRECTION('',(1.,0.));
#53 = ( GEOMETRIC_REPRESENTATION_CONTEXT(2) 
PARAMETRIC_REPRESENTATION_CONTEXT() REPRESENTATION_CONTEXT('2D SPACE',''
  ) );
#54 = ADVANCED_FACE('',(#55),#43,.T.);
#55 = FACE_BOUND('',#56,.T.);
#56 = EDGE_LOOP('',(#57,#90,#110,#111));
#57 = ORIENTED_EDGE('',*,*,#58,.F.);
#58 = EDGE_CURVE('',#59,#59,#61,.T.);
#59 = VERTEX_POINT('',#60);
#60 = CARTESIAN_POINT('',(15.,-3.611118645726E-32,0.));
#61 = SURFACE_CURVE('',#62,(#67,#74),.PCURVE_S1.);
#62 = CIRCLE('',#63,15.);
#63 = AXIS2_PLACEMENT_3D('',#64,#65,#66);
#64 = CARTESIAN_POINT('',(-1.138209596854E-16,5.69104798427E-17,0.));
#65 = DIRECTION('',(-3.794031989514E-18,-1.,0.));
#66 = DIRECTION('',(1.,-3.794031989514E-18,0.));
#67 = PCURVE('',#43,#68);
#68 = DEFINITIONAL_REPRESENTATION('',(#69),#73);
#69 = LINE('',#70,#71);
#70 = CARTESIAN_POINT('',(0.,1.719446359558E-15));
#71 = VECTOR('',#72,1.);
#72 = DIRECTION('',(1.,0.));
#73 = ( GEOMETRIC_REPRESENTATION_CONTEXT(2) 
PARAMETRIC_REPRESENTATION_CONTEXT() REPRESENTATION_CONTEXT('2D SPACE',''
  ) );
#74 = PCURVE('',#75,#80);
#75 = PLANE('',#76);
#76 = AXIS2_PLACEMENT_3D('',#77,#78,#79);
#77 = CARTESIAN_POINT('',(15.,-2.086717594233E-17,0.));
#78 = DIRECTION('',(3.794031989514E-18,1.,0.));
#79 = DIRECTION('',(-1.,3.794031989514E-18,0.));
#80 = DEFINITIONAL_REPRESENTATION('',(#81),#89);
#81 = ( BOUNDED_CURVE() B_SPLINE_CURVE(2,(#82,#83,#84,#85,#86,#87,#88),
.UNSPECIFIED.,.T.,.F.) B_SPLINE_CURVE_WITH_KNOTS((1,2,2,2,2,1),(
    -2.094395102393,0.,2.094395102393,4.188790204786,6.28318530718,
8.377580409573),.UNSPECIFIED.) CURVE() GEOMETRIC_REPRESENTATION_ITEM() 
RATIONAL_B_SPLINE_CURVE((1.,0.5,1.,0.5,1.,0.5,1.)) REPRESENTATION_ITEM(
  '') );
#82 = CARTESIAN_POINT('',(0.,0.));
#83 = CARTESIAN_POINT('',(0.,25.980762113533));
#84 = CARTESIAN_POINT('',(22.5,12.990381056767));
#85 = CARTESIAN_POINT('',(45.,3.673940397442E-15));
#86 = CARTESIAN_POINT('',(22.5,-12.99038105676));
#87 = CARTESIAN_POINT('',(2.30926389122E-14,-25.98076211353));
#88 = CARTESIAN_POINT('',(0.,0.));
#89 = ( GEOMETRIC_REPRESENTATION_CONTEXT(2) 
PARAMETRIC_REPRESENTATION_CONTEXT() REPRESENTATION_CONTEXT('2D SPACE',''
  ) );
#90 = ORIENTED_EDGE('',*,*,#91,.F.);
#91 = EDGE_CURVE('',#22,#59,#92,.T.);
#92 = SEAM_CURVE('',#93,(#96,#103),.PCURVE_S1.);
#93 = B_SPLINE_CURVE_WITH_KNOTS('',1,(#94,#95),.UNSPECIFIED.,.F.,.F.,(2,
    2),(-30.,0.),.PIECEWISE_BEZIER_KNOTS.);
#94 = CARTESIAN_POINT('',(15.,30.,-3.673940397442E-15));
#95 = CARTESIAN_POINT('',(15.,1.719446359558E-15,-3.673940397442E-15));
#96 = PCURVE('',#43,#97);
#97 = DEFINITIONAL_REPRESENTATION('',(#98),#102);
#98 = LINE('',#99,#100);
#99 = CARTESIAN_POINT('',(0.,0.));
#100 = VECTOR('',#101,1.);
#101 = DIRECTION('',(0.,1.));
#102 = ( GEOMETRIC_REPRESENTATION_CONTEXT(2) 
PARAMETRIC_REPRESENTATION_CONTEXT() REPRESENTATION_CONTEXT('2D SPACE',''
  ) );
#103 = PCURVE('',#43,#104);
#104 = DEFINITIONAL_REPRESENTATION('',(#105),#109);
#105 = LINE('',#106,#107);
#106 = CARTESIAN_POINT('',(6.28318530718,0.));
#107 = VECTOR('',#108,1.);
#108 = DIRECTION('',(0.,1.));
#109 = ( GEOMETRIC_REPRESENTATION_CONTEXT(2) 
PARAMETRIC_REPRESENTATION_CONTEXT() REPRESENTATION_CONTEXT('2D SPACE',''
  ) );
#110 = ORIENTED_EDGE('',*,*,#21,.T.);
#111 = ORIENTED_EDGE('',*,*,#91,.T.);
#112 = ADVANCED_FACE('',(#113,#148),#75,.F.);
#113 = FACE_BOUND('',#114,.T.);
#114 = EDGE_LOOP('',(#115));
#115 = ORIENTED_EDGE('',*,*,#116,.F.);
#116 = EDGE_CURVE('',#117,#117,#119,.T.);
#117 = VERTEX_POINT('',#118);
#118 = CARTESIAN_POINT('',(4.,1.173613559861E-31,0.));
#119 = SURFACE_CURVE('',#120,(#125,#136),.PCURVE_S1.);
#120 = CIRCLE('',#121,4.);
#121 = AXIS2_PLACEMENT_3D('',#122,#123,#124);
#122 = CARTESIAN_POINT('',(-1.138209596854E-16,1.517612795805E-17,0.));
#123 = DIRECTION('',(-3.794031989514E-18,-1.,0.));
#124 = DIRECTION('',(1.,-3.794031989514E-18,0.));
#125 = PCURVE('',#75,#126);
#126 = DEFINITIONAL_REPRESENTATION('',(#127),#135);
#127 = ( BOUNDED_CURVE() B_SPLINE_CURVE(2,(#128,#129,#130,#131,#132,#133
,#134),.UNSPECIFIED.,.T.,.F.) B_SPLINE_CURVE_WITH_KNOTS((1,2,2,2,2,1),(
    -2.094395102393,0.,2.094395102393,4.188790204786,6.28318530718,
8.377580409573),.UNSPECIFIED.) CURVE() GEOMETRIC_REPRESENTATION_ITEM() 
RATIONAL_B_SPLINE_CURVE((1.,0.5,1.,0.5,1.,0.5,1.)) REPRESENTATION_ITEM(
  '') );
#128 = CARTESIAN_POINT('',(11.,0.));
#129 = CARTESIAN_POINT('',(11.,6.928203230276));
#130 = CARTESIAN_POINT('',(17.,3.464101615138));
#131 = CARTESIAN_POINT('',(23.,9.797174393179E-16));
#132 = CARTESIAN_POINT('',(17.,-3.464101615138));
#133 = CARTESIAN_POINT('',(11.,-6.928203230276));
#134 = CARTESIAN_POINT('',(11.,0.));
#135 = ( GEOMETRIC_REPRESENTATION_CONTEXT(2) 
PARAMETRIC_REPRESENTATION_CONTEXT() REPRESENTATION_CONTEXT('2D SPACE',''
  ) );
#136 = PCURVE('',#137,#142);
#137 = CONICAL_SURFACE('',#138,4.,0.785398163397);
#138 = AXIS2_PLACEMENT_3D('',#139,#140,#141);
#139 = CARTESIAN_POINT('',(-1.138209596854E-16,1.517612795805E-17,0.));
#140 = DIRECTION('',(-3.794031989514E-18,-1.,0.));
#141 = DIRECTION('',(1.,-3.794031989514E-18,0.));
#142 = DEFINITIONAL_REPRESENTATION('',(#143),#147);
#143 = LINE('',#144,#145);
#144 = CARTESIAN_POINT('',(0.,0.));
#145 = VECTOR('',#146,1.);
#146 = DIRECTION('',(1.,0.));
#147 = ( GEOMETRIC_REPRESENTATION_CONTEXT(2) 
PARAMETRIC_REPRESENTATION_CONTEXT() REPRESENTATION_CONTEXT('2D SPACE',''
  ) );
#148 = FACE_BOUND('',#149,.T.);
#149 = EDGE_LOOP('',(#150));
#150 = ORIENTED_EDGE('',*,*,#58,.T.);
#151 = ADVANCED_FACE('',(#152),#137,.F.);
#152 = FACE_BOUND('',#153,.F.);
#153 = EDGE_LOOP('',(#154,#183,#203,#204));
#154 = ORIENTED_EDGE('',*,*,#155,.T.);
#155 = EDGE_CURVE('',#156,#156,#158,.T.);
#156 = VERTEX_POINT('',#157);
#157 = CARTESIAN_POINT('',(3.3235,0.6765,0.));
#158 = SURFACE_CURVE('',#159,(#164,#171),.PCURVE_S1.);
#159 = CIRCLE('',#160,3.3235);
#160 = AXIS2_PLACEMENT_3D('',#161,#162,#163);
#161 = CARTESIAN_POINT('',(-1.112542970445E-16,0.6765,0.));
#162 = DIRECTION('',(-3.794031989514E-18,-1.,0.));
#163 = DIRECTION('',(1.,-3.794031989514E-18,0.));
#164 = PCURVE('',#137,#165);
#165 = DEFINITIONAL_REPRESENTATION('',(#166),#170);
#166 = LINE('',#167,#168);
#167 = CARTESIAN_POINT('',(0.,-0.6765));
#168 = VECTOR('',#169,1.);
#169 = DIRECTION('',(1.,0.));
#170 = ( GEOMETRIC_REPRESENTATION_CONTEXT(2) 
PARAMETRIC_REPRESENTATION_CONTEXT() REPRESENTATION_CONTEXT('2D SPACE',''
  ) );
#171 = PCURVE('',#172,#177);
#172 = CYLINDRICAL_SURFACE('',#173,3.3235);
#173 = AXIS2_PLACEMENT_3D('',#174,#175,#176);
#174 = CARTESIAN_POINT('',(-1.138209596854E-16,1.7763568394E-15,0.));
#175 = DIRECTION('',(-3.794031989514E-18,-1.,0.));
#176 = DIRECTION('',(1.,-3.794031989514E-18,0.));
#177 = DEFINITIONAL_REPRESENTATION('',(#178),#182);
#178 = LINE('',#179,#180);
#179 = CARTESIAN_POINT('',(0.,-0.6765));
#180 = VECTOR('',#181,1.);
#181 = DIRECTION('',(1.,0.));
#182 = ( GEOMETRIC_REPRESENTATION_CONTEXT(2) 
PARAMETRIC_REPRESENTATION_CONTEXT() REPRESENTATION_CONTEXT('2D SPACE',''
  ) );
#183 = ORIENTED_EDGE('',*,*,#184,.T.);
#184 = EDGE_CURVE('',#156,#117,#185,.T.);
#185 = SEAM_CURVE('',#186,(#189,#196),.PCURVE_S1.);
#186 = B_SPLINE_CURVE_WITH_KNOTS('',1,(#187,#188),.UNSPECIFIED.,.F.,.F.,
  (2,2),(-0.956715474945,0.),.PIECEWISE_BEZIER_KNOTS.);
#187 = CARTESIAN_POINT('',(3.3235,0.6765,0.));
#188 = CARTESIAN_POINT('',(4.,9.860761315263E-32,0.));
#189 = PCURVE('',#137,#190);
#190 = DEFINITIONAL_REPRESENTATION('',(#191),#195);
#191 = LINE('',#192,#193);
#192 = CARTESIAN_POINT('',(6.28318530718,0.));
#193 = VECTOR('',#194,1.);
#194 = DIRECTION('',(0.,1.));
#195 = ( GEOMETRIC_REPRESENTATION_CONTEXT(2) 
PARAMETRIC_REPRESENTATION_CONTEXT() REPRESENTATION_CONTEXT('2D SPACE',''
  ) );
#196 = PCURVE('',#137,#197);
#197 = DEFINITIONAL_REPRESENTATION('',(#198),#202);
#198 = LINE('',#199,#200);
#199 = CARTESIAN_POINT('',(0.,0.));
#200 = VECTOR('',#201,1.);
#201 = DIRECTION('',(0.,1.));
#202 = ( GEOMETRIC_REPRESENTATION_CONTEXT(2) 
PARAMETRIC_REPRESENTATION_CONTEXT() REPRESENTATION_CONTEXT('2D SPACE',''
  ) );
#203 = ORIENTED_EDGE('',*,*,#116,.F.);
#204 = ORIENTED_EDGE('',*,*,#184,.F.);
#205 = ADVANCED_FACE('',(#206),#172,.F.);
#206 = FACE_BOUND('',#207,.F.);
#207 = EDGE_LOOP('',(#208,#237,#257,#258));
#208 = ORIENTED_EDGE('',*,*,#209,.T.);
#209 = EDGE_CURVE('',#210,#210,#212,.T.);
#210 = VERTEX_POINT('',#211);
#211 = CARTESIAN_POINT('',(3.3235,13.45,0.));
#212 = SURFACE_CURVE('',#213,(#218,#225),.PCURVE_S1.);
#213 = CIRCLE('',#214,3.3235);
#214 = AXIS2_PLACEMENT_3D('',#215,#216,#217);
#215 = CARTESIAN_POINT('',(-6.279122942645E-17,13.45,0.));
#216 = DIRECTION('',(-3.794031989514E-18,-1.,0.));
#217 = DIRECTION('',(1.,-3.794031989514E-18,0.));
#218 = PCURVE('',#172,#219);
#219 = DEFINITIONAL_REPRESENTATION('',(#220),#224);
#220 = LINE('',#221,#222);
#221 = CARTESIAN_POINT('',(0.,-13.45));
#222 = VECTOR('',#223,1.);
#223 = DIRECTION('',(1.,0.));
#224 = ( GEOMETRIC_REPRESENTATION_CONTEXT(2) 
PARAMETRIC_REPRESENTATION_CONTEXT() REPRESENTATION_CONTEXT('2D SPACE',''
  ) );
#225 = PCURVE('',#226,#231);
#226 = CONICAL_SURFACE('',#227,3.3235,1.047197551197);
#227 = AXIS2_PLACEMENT_3D('',#228,#229,#230);
#228 = CARTESIAN_POINT('',(-6.279122942645E-17,13.45,0.));
#229 = DIRECTION('',(-3.794031989514E-18,-1.,0.));
#230 = DIRECTION('',(1.,-3.794031989514E-18,0.));
#231 = DEFINITIONAL_REPRESENTATION('',(#232),#236);
#232 = LINE('',#233,#234);
#233 = CARTESIAN_POINT('',(0.,0.));
#234 = VECTOR('',#235,1.);
#235 = DIRECTION('',(1.,0.));
#236 = ( GEOMETRIC_REPRESENTATION_CONTEXT(2) 
PARAMETRIC_REPRESENTATION_CONTEXT() REPRESENTATION_CONTEXT('2D SPACE',''
  ) );
#237 = ORIENTED_EDGE('',*,*,#238,.T.);
#238 = EDGE_CURVE('',#210,#156,#239,.T.);
#239 = SEAM_CURVE('',#240,(#243,#250),.PCURVE_S1.);
#240 = B_SPLINE_CURVE_WITH_KNOTS('',1,(#241,#242),.UNSPECIFIED.,.F.,.F.,
  (2,2),(-13.45,-0.6765),.PIECEWISE_BEZIER_KNOTS.);
#241 = CARTESIAN_POINT('',(3.3235,13.45,0.));
#242 = CARTESIAN_POINT('',(3.3235,0.6765,0.));
#243 = PCURVE('',#172,#244);
#244 = DEFINITIONAL_REPRESENTATION('',(#245),#249);
#245 = LINE('',#246,#247);
#246 = CARTESIAN_POINT('',(6.28318530718,0.));
#247 = VECTOR('',#248,1.);
#248 = DIRECTION('',(0.,1.));
#249 = ( GEOMETRIC_REPRESENTATION_CONTEXT(2) 
PARAMETRIC_REPRESENTATION_CONTEXT() REPRESENTATION_CONTEXT('2D SPACE',''
  ) );
#250 = PCURVE('',#172,#251);
#251 = DEFINITIONAL_REPRESENTATION('',(#252),#256);
#252 = LINE('',#253,#254);
#253 = CARTESIAN_POINT('',(0.,0.));
#254 = VECTOR('',#255,1.);
#255 = DIRECTION('',(0.,1.));
#256 = ( GEOMETRIC_REPRESENTATION_CONTEXT(2) 
PARAMETRIC_REPRESENTATION_CONTEXT() REPRESENTATION_CONTEXT('2D SPACE',''
  ) );
#257 = ORIENTED_EDGE('',*,*,#155,.F.);
#258 = ORIENTED_EDGE('',*,*,#238,.F.);
#259 = ADVANCED_FACE('',(#260),#226,.F.);
#260 = FACE_BOUND('',#261,.F.);
#261 = EDGE_LOOP('',(#262,#284,#285));
#262 = ORIENTED_EDGE('',*,*,#263,.T.);
#263 = EDGE_CURVE('',#264,#210,#266,.T.);
#264 = VERTEX_POINT('',#265);
#265 = CARTESIAN_POINT('',(0.,15.368823619652,0.));
#266 = SEAM_CURVE('',#267,(#270,#277),.PCURVE_S1.);
#267 = B_SPLINE_CURVE_WITH_KNOTS('',1,(#268,#269),.UNSPECIFIED.,.F.,.F.,
  (2,2),(-3.837647239303,0.),.PIECEWISE_BEZIER_KNOTS.);
#268 = CARTESIAN_POINT('',(0.,15.368823619652,0.));
#269 = CARTESIAN_POINT('',(3.3235,13.45,0.));
#270 = PCURVE('',#226,#271);
#271 = DEFINITIONAL_REPRESENTATION('',(#272),#276);
#272 = LINE('',#273,#274);
#273 = CARTESIAN_POINT('',(6.28318530718,0.));
#274 = VECTOR('',#275,1.);
#275 = DIRECTION('',(0.,1.));
#276 = ( GEOMETRIC_REPRESENTATION_CONTEXT(2) 
PARAMETRIC_REPRESENTATION_CONTEXT() REPRESENTATION_CONTEXT('2D SPACE',''
  ) );
#277 = PCURVE('',#226,#278);
#278 = DEFINITIONAL_REPRESENTATION('',(#279),#283);
#279 = LINE('',#280,#281);
#280 = CARTESIAN_POINT('',(0.,0.));
#281 = VECTOR('',#282,1.);
#282 = DIRECTION('',(0.,1.));
#283 = ( GEOMETRIC_REPRESENTATION_CONTEXT(2) 
PARAMETRIC_REPRESENTATION_CONTEXT() REPRESENTATION_CONTEXT('2D SPACE',''
  ) );
#284 = ORIENTED_EDGE('',*,*,#209,.F.);
#285 = ORIENTED_EDGE('',*,*,#263,.F.);
#286 = ( GEOMETRIC_REPRESENTATION_CONTEXT(3) 
GLOBAL_UNCERTAINTY_ASSIGNED_CONTEXT((#290)) GLOBAL_UNIT_ASSIGNED_CONTEXT
((#287,#288,#289)) REPRESENTATION_CONTEXT('Context #1',
  '3D Context with UNIT and UNCERTAINTY') );
#287 = ( LENGTH_UNIT() NAMED_UNIT(*) SI_UNIT(.MILLI.,.METRE.) );
#288 = ( NAMED_UNIT(*) PLANE_ANGLE_UNIT() SI_UNIT($,.RADIAN.) );
#289 = ( NAMED_UNIT(*) SI_UNIT($,.STERADIAN.) SOLID_ANGLE_UNIT() );
#290 = UNCERTAINTY_MEASURE_WITH_UNIT(LENGTH_MEASURE(1.E-05),#287,
  'distance_accuracy_value','confusion accuracy');
#291 = PRODUCT_RELATED_PRODUCT_CATEGORY('part',$,(#7));
#292 = MECHANICAL_DESIGN_GEOMETRIC_PRESENTATION_REPRESENTATION('',(#293,
    #304,#312,#319,#326,#334,#341),#286);
#293 = STYLED_ITEM('color',(#294),#15);
#294 = PRESENTATION_STYLE_ASSIGNMENT((#295,#301));
#295 = SURFACE_STYLE_USAGE(.BOTH.,#296);
#296 = SURFACE_SIDE_STYLE('',(#297));
#297 = SURFACE_STYLE_FILL_AREA(#298);
#298 = FILL_AREA_STYLE('',(#299));
#299 = FILL_AREA_STYLE_COLOUR('',#300);
#300 = COLOUR_RGB('',0.800000010877,0.800000010877,0.800000010877);
#301 = CURVE_STYLE('',#302,POSITIVE_LENGTH_MEASURE(0.1),#303);
#302 = DRAUGHTING_PRE_DEFINED_CURVE_FONT('continuous');
#303 = COLOUR_RGB('',9.803921802644E-02,9.803921802644E-02,
  9.803921802644E-02);
#304 = OVER_RIDING_STYLED_ITEM('overriding color',(#305),#17,#293);
#305 = PRESENTATION_STYLE_ASSIGNMENT((#306));
#306 = SURFACE_STYLE_USAGE(.BOTH.,#307);
#307 = SURFACE_SIDE_STYLE('',(#308));
#308 = SURFACE_STYLE_FILL_AREA(#309);
#309 = FILL_AREA_STYLE('',(#310));
#310 = FILL_AREA_STYLE_COLOUR('',#311);
#311 = COLOUR_RGB('',0.752941202324,0.752941202324,0.752941202324);
#312 = OVER_RIDING_STYLED_ITEM('overriding color',(#313),#54,#293);
#313 = PRESENTATION_STYLE_ASSIGNMENT((#314));
#314 = SURFACE_STYLE_USAGE(.BOTH.,#315);
#315 = SURFACE_SIDE_STYLE('',(#316));
#316 = SURFACE_STYLE_FILL_AREA(#317);
#317 = FILL_AREA_STYLE('',(#318));
#318 = FILL_AREA_STYLE_COLOUR('',#311);
#319 = OVER_RIDING_STYLED_ITEM('overriding color',(#320),#112,#293);
#320 = PRESENTATION_STYLE_ASSIGNMENT((#321));
#321 = SURFACE_STYLE_USAGE(.BOTH.,#322);
#322 = SURFACE_SIDE_STYLE('',(#323));
#323 = SURFACE_STYLE_FILL_AREA(#324);
#324 = FILL_AREA_STYLE('',(#325));
#325 = FILL_AREA_STYLE_COLOUR('',#311);
#326 = OVER_RIDING_STYLED_ITEM('overriding color',(#327),#151,#293);
#327 = PRESENTATION_STYLE_ASSIGNMENT((#328));
#328 = SURFACE_STYLE_USAGE(.BOTH.,#329);
#329 = SURFACE_SIDE_STYLE('',(#330));
#330 = SURFACE_STYLE_FILL_AREA(#331);
#331 = FILL_AREA_STYLE('',(#332));
#332 = FILL_AREA_STYLE_COLOUR('',#333);
#333 = COLOUR_RGB('',0.729411790161,0.768627468855,0.784313732475);
#334 = OVER_RIDING_STYLED_ITEM('overriding color',(#335),#205,#293);
#335 = PRESENTATION_STYLE_ASSIGNMENT((#336));
#336 = SURFACE_STYLE_USAGE(.BOTH.,#337);
#337 = SURFACE_SIDE_STYLE('',(#338));
#338 = SURFACE_STYLE_FILL_AREA(#339);
#339 = FILL_AREA_STYLE('',(#340));
#340 = FILL_AREA_STYLE_COLOUR('',#333);
#341 = OVER_RIDING_STYLED_ITEM('overriding color',(#342),#259,#293);
#342 = PRESENTATION_STYLE_ASSIGNMENT((#343));
#343 = SURFACE_STYLE_USAGE(.BOTH.,#344);
#344 = SURFACE_SIDE_STYLE('',(#345));
#345 = SURFACE_STYLE_FILL_AREA(#346);
#346 = FILL_AREA_STYLE('',(#347));
#347 = FILL_AREA_STYLE_COLOUR('',#333);
ENDSEC;
END-ISO-10303-21;
